War Within A Breath
Rage Against The Machine
The Battle Of Los Angeles
By: Anthony
Drop-Db, or also known as C#

Intro/Verse: ( Use some effect i think its the whammy
for the 15th fret thing
E---------------21--------------|
B-------------------------------|
G-------------------------------|
D-------------------------------|
A-15b14r15----------------------|
Db------------------------------|

Pre-Chorus: ("Everything can change...")
E--------------------------------|
B--------------------------------|
G---13-13--12-12---11--11---10-10|
D-11-----11------11--11---11-----|
A--------------------------------|
Db-------------------------------|

Chorus: (War within A Breath!)     Before Entering 2nd
chorus
E-------------------------------|-x-x-x-x-x-x-x-x-x-x-x-x---------------------|
B-------------------------------|-x-x-x-x-x-x-x-x-x-x-x-x---------------------|
G-------------------------------|-x-x-x-x-x-x-x-x-x-x-x-x---------------------|
D-------------------------------|-x-x-x-x-x-x-x-x-x-x-x-x---------------------|
A-------2-4-------2-4-----------|-x-x-x-x-x-x-x-x-x-x-x-x---------------------|
Db0-3-5----3-0-3-5---3----------|-x-x-x-x-x-x-x-x-x-x-x-x---------------------|
 

--------------------------------------------------------------------------------