Testify Intro:

E-----------------------------------------------------------------------------------
B-----(6)-------------------------------------------------------------------------
G-----(5)-------------------------------------------------------------------------
D-----(4)---------------------------------------------------------------------
A-----(5)---------------------3-----------3----5------------------------------
D------0-----3---5--0------------0----------------x--0--3--5-------------

E---------------------------------------------------------------------------------
B----(6)---------------------------------------------------------------------------
G----(5)---------------------------------------------------------------------------
D----(4)----------------------------------------------------------12b13-----
A----(5)--------------------7--10----------3---5--------------12b13----
E-----0----3--5--0--------7--10------0-------------x----0-----------
 

--------------------------------------------------------------------------------