Take The Power Back
Notice the bottom E is dropped to D
 

Intro:
The guitar plays these cords and then slides off. One for each bar the
bass plays.
 

E: ------------------------------------------------------------|
B: ---10-------9-----8------7----------------------------------|
G: ---10-------9-----8------7----------------------------------|
D: ------------------------------------------------------------|
A: ------------------------------------------------------------|
D: ------------------------------------------------------------|

Part 1:
Not exact, but follows what the bass is playing

E: ------------------------------|
B: ------------------------------|
G: ------------------------------|
D: ---------------3p0-------3----|
A: --------3h5-x-----3h5---------|
D: --0-0-------------------------|

Part 2:
During the singing

     3X    Noise
E: --------------------------------------|
B: -------------------------x----x-------|
G: --7-7-7-7-7-7-5-----------x------x----|
D: -------------------------x--------x---|
A: --5-5-5-5-5-5-3----------x----x-------|
D: --------------------------x-----------|

Part 3:
During the We got to take the power back, come on, come on
E: ------------------------------------------------------------(22)--(22)--|
B: ---10--7--10--12--12b13----------10--7--10--12--12b13-------------------|
G: ---10--7--10--12--12b13----------10--7--10--12--12b13-------------------|
D: ------------------------------------------------------------------------|
A: ------------------------------------------------------------------------|
D: ------------------------------------------------------------------------|

E: ---------------------------------------------------|
B: ---10--7--10--12--12b13----------10--7-------------|
G: ---10--7--10--12--12b13----------10--7-------------|
D: ---------------------------------------------------|
A: ----------------------------------------3----------|
D: ---------------------------------------------------|