The Narrows
Transcribed by Kenny Luong (kenny.luong@usa.net)
 

Intro
/////

E|-----|
B|-----|
G|--9--|
D|--9--|
A|--7--|
E|--0--|

Post Intro/Pre Bridge
/////////////////////

E|-----------------------|
B|-----------------------|
G|--------------------2--|
D|--9/7-xx-7/5/6/5-xx-2--|
A|--7/5-xx-5/3/4/3-xx-0--|
E|-----------------------|

E|-------------------------|
B|-------------------------|
G|-----------------xxxxxx--|
D|--9/7-xx-7/5/6/5-xxxxxx--|
A|--7/5-xx-5/3/4/3-xxxxxx--|
E|-----------------xxxxxx--|

Verse
/////

E|-------|
B|--^11--|      The verse parts are over dubed with the bends and this below
G|-------|
D|-------|
A|-------|
E|-------|

E|-----------------------------------------------------------|
B|-----------------------------------------------------------|
G|-----------------------------------------------------------|
D|--------9--7--9---------9--7--9-(9)---------9--7--9--------|
A|--------------------------------------------------------71--|
E|--7--7-------------5------------------7--7--------------5--|
 
()= play on odd times
 
**Do a slide on the A note at the last bar

Pre Chorus
//////////

E|--------|---------------------------|
B|--------|---------------------------|
G|--9-----|---9-----8-----7-----------|
D|--------|----------------------7/5--|
A|-----7--|------7------6-----5--5/3--|
E|--------|---------------------------|

Chorus
//////

E|--------------5/4-5/4--|
B|--------------5/4-5/4--|
G|-----------------------|
D|--2-2--9--2------------|
A|--2-2--7--2------------|
E|--0-0-----0------------|

E|---------------------|
B|---------------------|
G|---------------------|
D|--2-2--9--2---3-4-7--|
A|--2-2--7--2---1-2-5--|
E|--0-0-----0----------|

E|--------------3/2-3/2--|
B|--------------3/2-3/2--|
G|-----------------------|
D|--2-2--9--2------------|
A|--2-2--7--2------------|
E|--0-0-----0------------|

E|---------------------|
B|---------------------|
G|---------------------|
D|--2-2--9--2---3-4-7--|
A|--2-2--7--2---1-2-5--|
E|--0-0-----0----------|

Bridge
//////

E|------------|
B|------------|
G|------------|
D|--^7--------|
A|--------5---|
E|------------|

Solo
////

Your on your own...

Outro
/////

E|--------------------------0--|
B|------------------0-------0--|
G|--------------------0-----0--|
D|--9-8-7-6-5-4-2-------0---0--|
A|--7-6-5-4-3-2-2-----------0--|
E|--------------0--------------|