Mindset's A Threat
transcribed by Kenny Luong (kenny.luong@usa.net)

Intro
/////

E|-----|
B|-----| Palm mute and tremolo pick this chord a million times :) and
G|-----| near the end lift your picking hand from the strings to get distortion
D|-----| at the end of the intro
A|--5--|
E|--7--|

 
Chorus/Post Intro
/////////////////

E|--------------------------------------------|
B|--------------------------------------------|
G|--------------------------------------------|
D|------5---7-8-9--------10-------------------|
A|--7---3---5-6-7--10-12----12---------4-5-4--|
E|--5--------------------------10/1r0--2-3-2--|

E|--------------------------------------------|
B|------------------------------0-------------|   *= w/bar
G|------------------------------0-------------|
D|------5---7-8-9--------10-----0-------------|
A|--7---3---5-6-7--10-12----12--x------4-5-4--|
E|--5--------------------------10/1r0--2-3-2--|
                                *
 

Verse
/////

E|-------------|-0h10/1r0--|
B|-------------|-0h10/1r0--|
G|-------------|-0h10/1r0--|
D|-------------|-----------|
A|--4-5-4-7-7--|-----------|
E|--2-3-2-5-5--|-----------|

Bridge
//////

E|-------------------------|
B|-------------------------|
G|-------------------------|
D|--5-5-5--5-5-5-5--5-5-5--|
A|--5-5-5--5-5-5-5--5-5-5--|
E|--7-7-7--7-7-7-7--7-7-7--|

E|---------------------------------------------------------------------------------|
B|---------------------------------------------------------------------------------|
G|---------------------------------------------------------------------------------|
D|---------------------------------------------------------------------------------|
A|--12-0--0--10-0--0--8--0--0--7--0--0--5--0--3--0--2--0--0--0--5--0--3--2--0--^2--|
E|---------------------------------------------------------------------------------|

** This riff needs a talk box and if you have a good ear you can tell
   Tom reused it in the "Bullet In The Head" solo on their self-titled
   album

Solo
////

Your on your own.....

Outro
/////

E|---------------------------|-------|
B|---------------------------|-------|
G|---------------------------|-------|
D|------5---7-8-9--------10--|-------|
A|--7---3---5-6-7--10-12-----|--7-7--|
E|--5------------------------|--5-5--|

E|------------------|
B|------------------|
G|------------------|  >>>=volume swell
D|------------------|
A|-->>>7---77-7--7--|
E|-->>>5---55-5--5--|