Maria
EADGBE
email-icpyro@yahoo.com

/
/-tremelo picking
/

 Riff 1 (Verse)
|-------------------------------|
|-21~--21~--21~--21~--21~--21-~-|
|-------------------------------|
|-------------------------------|
|-------------------------------|
|-------------------------------|
 Set to harmonize a half step lower from normal pitch

 Riff 2
|-0\----------//0-|
|-0\\--------//-0-|
|-0-\\------//--0-|
|-0--\\----//---0-|
|-0---\\--//----0-|
|-0----\\//-----0-|
 w/bar  \/

 Riff 3 (Chorus)
|--------------------------------------------------|
|--------------------------------------------------|
|--------------------------------------------------|
|--------------------------------------------------|
|-7-5-7----5---5-----------------------------------|
|--------7---7----5-3-5-0--3-0-3--0-5-3-5--0-7-5-7-|
 
 

Riff 4
Gtr.1
|-----------------------------|
|-----------------------------|
|-------1-------1--------1----|
|-----2---2---2--------2---2--|
|---2-------2--------2--------|
|-0----------------0----------|
Gtr. 2
|-----------------------------|
|-------9-------9--------9----|
|-----9---9---9--------9---9--|
|---9-------9--------9--------|
|-7----------------7----------|
|-----------------------------|
 
 

 Solo-Set to harmonize a half step lower from normal pitch
|-21------------------21----------------21--------------------------|
|-----21\--/21\--/21\-----21\-/21\-/21\----/21\-/21\-/21\--/21---\--|
|-/----/-----/-----/---/---/----/----/---/---/----/----/-----/------|
|-/----/-----/-----/---/---/----/----/---/---/----/----/-----/------|
|-/----/-----/-----/---/---/----/----/---/---/----/----/-----/------|
|-------------------------------------------------------------------|

|-x-x-x-x-x-x-22\-x-22\-x-22\-x-22\-/22-x-x-x-22\-x-22\-x-22\-x-22\-|
|-x-x-x-x-x-x-------------------------------------------------------|
|-x-x-x-x-x-x-------------------------------------------------------|
|-------------------------------------------------------------------|
|-------------------------------------------------------------------|
|-------------------------------------------------------------------|

|-/22-x-x-x---------------------------------------------------------|
|----------------------------------------------------------ending---|
|------------------------------12b13r12-14b16r14-----------anyone?--|
|------------12b13r12-14b16r14--------------------------------------|
|-------------------------------------------------------------------|
|-------------------------------------------------------------------|

 End
|-----|
|-----|
|-3b5-|
|-----|
|-----|
|-----|
 w/harmonizer(same setting)

Structure
riff 1
riff 2
riff 3
riff 1
riff 2
riff 3
riff 4
solo
riff 3
end