How I Could Just Kill A Man
Tabbed by Kevin Sullivan t_morrelo@yahoo.com.

Drop D tuning

Intro verse  Harmonizer set 1 octave up

e----------------------------------------------
b----------------------------------------------
g----------------------------------------------
d---------------------3------------------------
a-3-5-3-5--3-5-5--3--------3-5-3-5--3-5-5--3--5
D----------------------------------------------

Chorus

e-----------------------------------------------
b-----------------------------------------------
g------3----------------------------------------
d-----------------------------------------------
a-----------------------3-----------------------
D-0-0-----0-0--3----5--------0-0-0-0-0-x-x-3/5\3

fill play during verses somtimes

D-0-0-0-0-0------