Bulls On Parade
By: Bill Martin

Intro:

E-|----------------------------------------------------|
B-|----------------------------------------------------|
G-|----------------------------------------------------|
D-|--4----4----4----4----4----4----4----4----4----4----|
A-|----------------------------------------------------|
E-|----2----2----2----2----2----2----2----2----2----2--|
 

Then just keep hitting the F# Barre Chord w/ a whammy bar.

 F#
      EADGBe
      244322

Verse: "This microphone explodes..."

E-------------------------------|
B-------------------------------|
G-------------------------------|
D-------------------------------|
A--------0---2-0----------------|
E--0--2-----------2--2--2--0--1-|

"Rally round the family.  WIth a pocket fulla shells"

E------------------------------|
B------------------------------|
G------------------------------|
D-------4--4-------4--4--------|
A-------4--4-------4--4--------|
E--0h2--2--2--0h2--2--2--------|