Born as Ghosts
Standard E tuning
Tabbed by Andy Dyck
--------------------------

Intro/Verse
|-------------|
|-------------|  with whammy bar pushed
|-------------|  clockwise. kinda like the
|-------------|  bullet in the head intro.
|-------------|
|--0\--/------|

Chorus
|-----|----------------------|
|-----|----------5b6r5-------|
|-----|----------------------|
|-x-7-|------7b*--------x-7--|  * 1/4 bend
|-x-5-|------5b*--------x-5--|
|-----|-0-0------------------|

Verse

Chorus

Solo- This is hard here I'm not sure what it is but
      I have a few Ideas so try them out.
      1. Whammy pedal + feedback + wah + selector switch
      2. Whammy pedal + fretted note + wah + selector switch
      3. Cord to metal + wah + selector switch (like testify)
      (play around with it there's some definite whammy
      action going down here!)

Part 2 of solo- Tom uses a guitar with the selector switch on
                in the treble and rhythm positions and off in
                the middle then plays notes the 6th string
                and then others without the switch.

(more whammy stuff going on)
|---------|-------|-------|---------|-------|---------|-------------|
|---------|-------|-------|---------|-------|---------|-------------|
|---------|-------|-------|-------7-|-------|---------|-----------7-|
|-0---5-0-|-0---5-|-0---5-|-0---5---|-0---5-|-0---5-0-|-0---5-7-5---|
|---------|-------|-------|---------|-------|---------|-------------|
|---------|-------|-------|---------|-------|---------|-------------|

Drum Solo

Chorus

End with
|--------|
|--------|
|--------|
|--------|
|--------|
|-0----0-|